Taproot - Believed (var.4) Bass tab download free or play online

Bass tab for Believed (var.4) by Taproot free download and read or play online: file .txt, 2.06 kb has 56 views and 0 downloads.

Download bass tab "Believed (var.4)" (Taproot)

Taproot Band name
Believed Song name
Bass tabs Tab type
2.06 kb File size
.TXT File type
56 views
0 downloads
 
Are you robot?

Believed (var.4) bass tab read and play online

                    Believed Bass Tab by Taproot, 


Band: Taproot
Song: Believed
Tuning: Low A

Intro
G|-------------------------|
D|-------------------------|
A|-------------------------|
E|-------------------------|
A|-2~----------------------|

Verse
G|----------------|----------------|------------------------------|
D|---5p4----------|---5p4------7-7-|---5p4------------7-----7---7-|
A|-2-----0----2---|-2-----0-2/5-5--|-2-----0----2---5-----55--5---|
E|---------00---0-|----------------|---------00---3-----3---------| x2
A|----------------|----------------|------------------------------|

Pre-Chorus
G|----------------|----------------|------------------------------|
D|---5p4----------|---5p4------7-7-|---5p4------------------------|
A|-2-----0----2---|-2-----0-2/5-5--|-2-----0----2-----------------|
E|---------00---0-|----------------|---------00---3--33-3-3-33-33-|
A|----------------|----------------|------------------------------|

Chorus
G|----------------------------------------------------|
D|----------------------------------------------------|
A|--------------------------------4-44----------------|
E|-------------------------------------3-33-3-3-33-33-| x2
A|-22222-0--0-0-22222-0--0-0-22222--------------------|

Verse variation
G|----------------|----------------|------------------------------|
D|---5p4----------|---5p4------7-7-|---5p4------------7-----------|
A|-2-----0----2---|-2-----0-2/5-5--|-2-----0----2---5-------------|
E|---------00---0-|----------------|---------00---3-----3~--------| x2
A|----------------|----------------|------------------------------|

G|----------------|----------------|------------------------------|
D|---5p4----------|---5p4----------|---5p4------------7-----7-----|
A|-2-----0~-------|-2-----0----2~--|-2-----0--------5-----55--5---|
E|----------------|---------00-----|--------------3-----3---------| x2
A|----------------|----------------|------------------------------|

Verse 
Pre-Chorus
Chorus
Bridge
G|----------------------|
D|----------------------|
A|----------------------|
E|----------------------|
A|-00001/2-0002/3-001/2-|

Chorus x8 fade out                    

Comments for bass tab — Believed (var.4) (Taproot)

Other Believed (var.4) by Taproot tabs:

Last viewed Taproot tabs: